Vagabond

Artisto: Wolfmother (English)
Uzanto: hallonnakil
Daŭro: 130 sekundoj
Komenca paŭzo: 12 sekundoj
Tononoma sistemo: Ne definita
Sakra:
Komentoj pri tabulaturo: -

URL

Laste redaktita:
hallonnakil,
2021-junio-11 11:25

Teksto


Вместо пятого лада - открытая 6 струна

Intro/Verse
e|-------------------------|----------------------------|
B|---2-------5----3p2------|---2------------------------|
G|-------2------------2----|-------2----4p2--------2----|
D|----------------------2--|-------------------2h4------|
A|0--------0----0----------|0--------0------0--------0--|
E|-------------------------|----------------------------|
 
Chorus
e|-----------3------------|---0h2-------3----0-------|
B|---0-----------0--------|--------3------------3----|
G|-------0-----------0----|--------------------------|
D|---------0-----------0--|0---------0--0--0------0--|
A|------------------------|--------------------------|
E|3-----------------------|--------------------------|
 
Verse
e|---------------------------------|----------------------------------|
B|---14--------17-----15p14--------|---14-----------------------------|
G|--------14----------------14-----|--------14----16p14---------14----|
D|-----------------------------14--|----------------------14h16-------|
A|0----------0-----0---------------|0----------0--------0----------0--|
E|---------------------------------|----------------------------------|
 
e|---------------------------------|----------------------------------|
B|---12--------15-----13p12--------|---12-----------------------------|
G|--------12----------------12-----|--------12----14p12---------12----|
D|-----------------------------12--|----------------------12h14-------|
A|0----------0-----0---------------|0----------0--------0----------0--|
E|---------------------------------|----------------------------------|
 
e|--------------------------|---------------------------|
B|---7-------10----8p7------|---7-----------------------|
G|-------7-------------7----|-------7----9p7-------7----|
D|-----------------------7--|------------------7h9------|
A|0--------0-----0----------|0--------0------0-------0--|
E|--------------------------|---------------------------|
 
e|-------------------------|---------------------------|
B|---2-------5----3p2------|---2-----------------------|
G|-------2------------2----|-------2----4p2-------2----|
D|----------------------2--|------------------2h4------|
A|0--------0----0----------|0--------0------0-------0--|
E|-------------------------|---------------------------|
  
Bridge
e|----------0------------|---0h2-------3----0-------|---------------------|
B|----1---------1--------|--------3------------3----|2--------------------|
G|-------0----------0----|--------------------------|2--------------------|
D|--------------------0--|0---------0--0--0------0--|2--------------------|
A|3----------------------|--------------------------|0--------------------|
E|-----------------------|--------------------------|---------------------|
 
e|-------------------------|
B|------------2------------|
G|----------4p2-------2----|
D|----------------2h4------|
A|----------------------0--|
E|-------------------------|
 
e|--------------------------|
B|2-------------------------|
G|2-------------------------|
D|2-------------------------|
A|0-------------------------|
E|--------------------------|

[Verse]
 A 
Oh girl, I don’t know all the reasons why
I found the answer, looking in your eye
I go out walking, all day long
Take away this lonely man, soon he will be gone
 
 
[Chorus]
 G       D                    A 
Cause I’ll tell you everything about living free
 G 
Yes I can see you girl
 D                      A 
Can you see me?
 
 
[Verse]
 A 
You don’t need to know what I do all day
It’s as much as I know
Watch it waste away
 
 
[Chorus]
 G       D                    A 
Cause I’ll tell you everything about living free
 G 
Yes I can see you girl
 D                      A 
Can you see me?
 
 
[Verse]
 A 
Go and see the sorcerer, look into the ball
You may find the answer, written on the wall
 G 
Look at what’s inside her
 D 
Can you see the answer?
 
 A 
Put her on a mansion on top of a hill
Please don’t make her do the things against her will
I found something special
I don’t know why
Looking into her pretty little eye
 G       D                    A 
Cause I’ll tell you everything about living free

Komentoj